0
SECTION
2
HEADER
9
$INSUNITS
70
4
9
$ACADVER
1
AC1014
9
$HANDSEED
5
FFFF
0
ENDSEC
0
SECTION
2
TABLES
0
TABLE
2
VPORT
5
8
100
AcDbSymbolTable
0
ENDTAB
0
TABLE
2
LTYPE
5
5
100
AcDbSymbolTable
0
LTYPE
5
14
100
AcDbSymbolTableRecord
100
AcDbLinetypeTableRecord
2
BYBLOCK
70
0
0
LTYPE
5
15
100
AcDbSymbolTableRecord
100
AcDbLinetypeTableRecord
2
BYLAYER
70
0
0
ENDTAB
0
TABLE
2
LAYER
5
2
100
AcDbSymbolTable
70
2
0
LAYER
5
50
100
AcDbSymbolTableRecord
100
AcDbLayerTableRecord
2
0
70
0
6
CONTINUOUS
0
ENDTAB
0
TABLE
2
STYLE
5
3
100
AcDbSymbolTable
70
1
0
STYLE
5
11
100
AcDbSymbolTableRecord
100
AcDbTextStyleTableRecord
2
STANDARD
70
0
0
ENDTAB
0
TABLE
2
VIEW
5
6
100
AcDbSymbolTable
70
0
0
ENDTAB
0
TABLE
2
UCS
5
7
100
AcDbSymbolTable
70
0
0
ENDTAB
0
TABLE
2
APPID
5
9
100
AcDbSymbolTable
70
2
0
APPID
5
12
100
AcDbSymbolTableRecord
100
AcDbRegAppTableRecord
2
ACAD
70
0
0
ENDTAB
0
TABLE
2
DIMSTYLE
5
A
100
AcDbSymbolTable
70
1
0
ENDTAB
0
TABLE
2
BLOCK_RECORD
5
1
100
AcDbSymbolTable
70
1
0
BLOCK_RECORD
5
1F
100
AcDbSymbolTableRecord
100
AcDbBlockTableRecord
2
*MODEL_SPACE
0
BLOCK_RECORD
5
1B
100
AcDbSymbolTableRecord
100
AcDbBlockTableRecord
2
*PAPER_SPACE
0
ENDTAB
0
ENDSEC
0
SECTION
2
BLOCKS
0
BLOCK
5
20
100
AcDbEntity
100
AcDbBlockBegin
2
*MODEL_SPACE
0
ENDBLK
5
21
100
AcDbEntity
100
AcDbBlockEnd
0
BLOCK
5
1C
100
AcDbEntity
100
AcDbBlockBegin
2
*PAPER_SPACE
0
ENDBLK
5
1D
100
AcDbEntity
100
AcDbBlockEnd
0
ENDSEC
0
SECTION
2
ENTITIES
0
LWPOLYLINE
5
100
100
AcDbEntity
8
0
100
AcDbPolyline
90
13
70
1
43
0.0
10
-20.000000298023224
20
-20.000000298023224
10
-20.000000298023224
20
-25.00000037252903
10
54.000000804662704
20
-60.000000894069672
10
122.00000181794167
20
-60.000000894069672
10
122.00000181794167
20
-55.000000819563866
10
126.00000187754631
20
-55.000000819563866
10
126.00000187754631
20
35.000000521540642
10
122.00000181794167
20
35.000000521540642
10
122.00000181794167
20
38.000000566244125
10
-20.000000298023224
20
38.000000566244125
10
-20.000000298023224
20
35.000000521540642
10
-25.00000037252903
20
35.000000521540642
10
-25.00000037252903
20
-20.000000298023224
0
LWPOLYLINE
5
101
100
AcDbEntity
8
0
100
AcDbPolyline
90
13
70
1
43
0.0
10
-20.000000298023224
20
-20.000000298023224
10
-20.000000298023224
20
-25.00000037252903
10
54.000000804662704
20
-60.000000894069672
10
122.00000181794167
20
-60.000000894069672
10
122.00000181794167
20
-55.000000819563866
10
126.00000187754631
20
-55.000000819563866
10
126.00000187754631
20
35.000000521540642
10
122.00000181794167
20
35.000000521540642
10
122.00000181794167
20
38.000000566244125
10
-20.000000298023224
20
38.000000566244125
10
-20.000000298023224
20
35.000000521540642
10
-25.00000037252903
20
35.000000521540642
10
-25.00000037252903
20
-20.000000298023224
0
CIRCLE
5
102
100
AcDbEntity
8
0
100
AcDbCircle
10
114.50000178813934
20
-55.500000864267349
30
0
40
1.499999999999998
210
0
220
0
230
1
0
CIRCLE
5
103
100
AcDbEntity
8
0
100
AcDbCircle
10
114.50000178813934
20
-30.500000417232513
30
0
40
1.4999999999999971
210
0
220
0
230
1
0
CIRCLE
5
104
100
AcDbEntity
8
0
100
AcDbCircle
10
114.75000178813936
20
-11.8000002682209
30
0
40
1.4999999999999987
210
0
220
0
230
1
0
CIRCLE
5
105
100
AcDbEntity
8
0
100
AcDbCircle
10
115.49999731779099
20
35.199999157339334
30
0
40
1.4999999999999989
210
0
220
0
230
1
0
CIRCLE
5
106
100
AcDbEntity
8
0
100
AcDbCircle
10
-13.499999597668648
20
35.199999157339334
30
0
40
1.5000000000000013
210
0
220
0
230
1
0
CIRCLE
5
107
100
AcDbEntity
8
0
100
AcDbCircle
10
-12.750000268220901
20
-11.8000002682209
30
0
40
1.5000000000000002
210
0
220
0
230
1
0
CIRCLE
5
108
100
AcDbEntity
8
0
100
AcDbCircle
10
56.500000804662704
20
-30.500000417232513
30
0
40
1.5000000000000022
210
0
220
0
230
1
0
CIRCLE
5
109
100
AcDbEntity
8
0
100
AcDbCircle
10
56.500000804662704
20
-55.500000864267349
30
0
40
1.5000000000000004
210
0
220
0
230
1
0
LWPOLYLINE
5
110
100
AcDbEntity
8
0
100
AcDbPolyline
90
4
70
1
43
0.0
10
58.500001676380634
20
-27.000000402331352
10
112.50000167638063
20
-27.000000402331352
10
112.50000167638063
20
-34.000000402331352
10
58.500001676380634
20
-34.000000402331352
0
LWPOLYLINE
5
111
100
AcDbEntity
8
0
100
AcDbPolyline
90
4
70
1
43
0.0
10
37.000000759959221
20
-8.8000002682209004
10
65.000000759959221
20
-8.8000002682209004
10
65.000000759959221
20
-14.8000002682209
10
37.000000759959221
20
-14.8000002682209
0
ENDSEC
0
SECTION
2
OBJECTS
0
DICTIONARY
5
C
100
AcDbDictionary
3
ACAD_GROUP
350
D
3
ACAD_MLINESTYLE
350
17
0
DICTIONARY
5
D
100
AcDbDictionary
0
DICTIONARY
5
1A
330
C
100
AcDbDictionary
0
DICTIONARY
5
17
100
AcDbDictionary
0
ENDSEC
0
EOF
